ISO-10303-21;
HEADER;
FILE_DESCRIPTION (( 'STEP AP214' ),
    '1' );
FILE_NAME ('6348440.stp',
    '2024-09-09T10:43:41',
    ( '' ),
    ( '' ),
    'SwSTEP 2.0',
    'SolidWorks 2022',
    '' );
FILE_SCHEMA (( 'AUTOMOTIVE_DESIGN' ));
ENDSEC;

DATA;
#1 = ORIENTED_EDGE ( 'NONE', *, *, #142, .T. ) ;
#2 = AXIS2_PLACEMENT_3D ( 'NONE', #158, #232, #68 ) ;
#3 = SURFACE_SIDE_STYLE ('',( #60 ) ) ;
#4 =( NAMED_UNIT ( * ) SI_UNIT ( $, .STERADIAN. ) SOLID_ANGLE_UNIT ( ) );
#5 = CLOSED_SHELL ( 'NONE', ( #34, #140, #215, #9, #190, #56, #64 ) ) ;
#6 =( NAMED_UNIT ( * ) PLANE_ANGLE_UNIT ( ) SI_UNIT ( $, .RADIAN. ) );
#7 = FACE_OUTER_BOUND ( 'NONE', #132, .T. ) ;
#8 = ORIENTED_EDGE ( 'NONE', *, *, #50, .F. ) ;
#9 = ADVANCED_FACE ( 'NONE', ( #193 ), #189, .T. ) ;
#10 = ORIENTED_EDGE ( 'NONE', *, *, #50, .T. ) ;
#11 = LINE ( 'NONE', #229, #226 ) ;
#12 = PLANE ( 'NONE',  #101 ) ;
#13 = AXIS2_PLACEMENT_3D ( 'NONE', #139, #213, #48 ) ;
#14 = CARTESIAN_POINT ( 'NONE',  ( -34.99999999999999289, -35.00000000000001421, -6.000000000000000000 ) ) ;
#15 = CARTESIAN_POINT ( 'NONE',  ( 35.00000000000000000, 34.99999999999999289, -6.000000000000000000 ) ) ;
#16 =( NAMED_UNIT ( * ) SI_UNIT ( $, .STERADIAN. ) SOLID_ANGLE_UNIT ( ) );
#17 = AXIS2_PLACEMENT_3D ( 'NONE', #212, #216, #137 ) ;
#18 =( LENGTH_UNIT ( ) NAMED_UNIT ( * ) SI_UNIT ( .MILLI., .METRE. ) );
#19 = AXIS2_PLACEMENT_3D ( 'NONE', #200, #151, #125 ) ;
#20 = EDGE_CURVE ( 'NONE', #150, #220, #11, .T. ) ;
#21 =( LENGTH_UNIT ( ) NAMED_UNIT ( * ) SI_UNIT ( .MILLI., .METRE. ) );
#22 = DIRECTION ( 'NONE',  ( -0.000000000000000000, 1.000000000000000000, -0.000000000000000000 ) ) ;
#23 = DIRECTION ( 'NONE',  ( 1.982541115402065110E-16, -1.000000000000000000, -0.000000000000000000 ) ) ;
#24 =( LENGTH_UNIT ( ) NAMED_UNIT ( * ) SI_UNIT ( .MILLI., .METRE. ) );
#25 = ORIENTED_EDGE ( 'NONE', *, *, #234, .F. ) ;
#26 = EDGE_LOOP ( 'NONE', ( #80 ) ) ;
#27 = ORIENTED_EDGE ( 'NONE', *, *, #148, .F. ) ;
#28 = VECTOR ( 'NONE', #184, 1000.000000000000000 ) ;
#29 = CARTESIAN_POINT ( 'NONE',  ( 35.00000000000000000, -35.00000000000000711, -6.000000000000000000 ) ) ;
#30 = LINE ( 'NONE', #175, #235 ) ;
#31 = DIRECTION ( 'NONE',  ( 0.000000000000000000, 0.000000000000000000, 1.000000000000000000 ) ) ;
#32 = VECTOR ( 'NONE', #114, 1000.000000000000000 ) ;
#33 = FACE_OUTER_BOUND ( 'NONE', #205, .T. ) ;
#34 = ADVANCED_FACE ( 'NONE', ( #77 ), #12, .T. ) ;
#35 = PRESENTATION_STYLE_ASSIGNMENT (( #199 ) ) ;
#36 = FACE_OUTER_BOUND ( 'NONE', #134, .T. ) ;
#37 = APPLICATION_PROTOCOL_DEFINITION ( 'draft international standard', 'automotive_design', 1998, #198 ) ;
#38 = ORIENTED_EDGE ( 'NONE', *, *, #182, .T. ) ;
#39 =( GEOMETRIC_REPRESENTATION_CONTEXT ( 3 ) GLOBAL_UNCERTAINTY_ASSIGNED_CONTEXT ( ( #147 ) ) GLOBAL_UNIT_ASSIGNED_CONTEXT ( ( #18, #236, #16 ) ) REPRESENTATION_CONTEXT ( 'NONE', 'WORKASPACE' ) );
#40 = APPLICATION_PROTOCOL_DEFINITION ( 'draft international standard', 'automotive_design', 1998, #51 ) ;
#41 = DIRECTION ( 'NONE',  ( 1.982541115402065110E-16, -1.000000000000000000, 0.000000000000000000 ) ) ;
#42 = PRODUCT_DEFINITION_FORMATION_WITH_SPECIFIED_SOURCE ( 'ANY', '', #145, .NOT_KNOWN. ) ;
#43 = FACE_OUTER_BOUND ( 'NONE', #126, .T. ) ;
#44 = ORIENTED_EDGE ( 'NONE', *, *, #20, .T. ) ;
#45 = VERTEX_POINT ( 'NONE', #93 ) ;
#46 = VERTEX_POINT ( 'NONE', #78 ) ;
#47 = LINE ( 'NONE', #53, #181 ) ;
#48 = DIRECTION ( 'NONE',  ( 1.000000000000000000, 0.000000000000000000, 0.000000000000000000 ) ) ;
#49 = STYLED_ITEM ( 'NONE', ( #35 ), #87 ) ;
#50 = EDGE_CURVE ( 'NONE', #220, #46, #111, .T. ) ;
#51 = APPLICATION_CONTEXT ( 'automotive_design' ) ;
#52 = DIRECTION ( 'NONE',  ( 1.000000000000000000, 0.000000000000000000, 0.000000000000000000 ) ) ;
#53 = CARTESIAN_POINT ( 'NONE',  ( 35.00000000000000000, -35.00000000000000711, -6.000000000000000000 ) ) ;
#54 = VERTEX_POINT ( 'NONE', #112 ) ;
#55 = ORIENTED_EDGE ( 'NONE', *, *, #148, .T. ) ;
#56 = ADVANCED_FACE ( 'NONE', ( #168, #7 ), #152, .F. ) ;
#57 = ORIENTED_EDGE ( 'NONE', *, *, #73, .T. ) ;
#58 =( NAMED_UNIT ( * ) PLANE_ANGLE_UNIT ( ) SI_UNIT ( $, .RADIAN. ) );
#59 = DIRECTION ( 'NONE',  ( -1.000000000000000000, 0.000000000000000000, -0.000000000000000000 ) ) ;
#60 = SURFACE_STYLE_FILL_AREA ( #94 ) ;
#61 =( GEOMETRIC_REPRESENTATION_CONTEXT ( 3 ) GLOBAL_UNCERTAINTY_ASSIGNED_CONTEXT ( ( #144 ) ) GLOBAL_UNIT_ASSIGNED_CONTEXT ( ( #24, #58, #217 ) ) REPRESENTATION_CONTEXT ( 'NONE', 'WORKASPACE' ) );
#62 = CARTESIAN_POINT ( 'NONE',  ( 35.00000000000000000, 34.99999999999999289, -6.000000000000000000 ) ) ;
#63 = CARTESIAN_POINT ( 'NONE',  ( -35.00000000000000000, 34.99999999999999289, 0.000000000000000000 ) ) ;
#64 = ADVANCED_FACE ( 'NONE', ( #129, #43 ), #170, .F. ) ;
#65 = ORIENTED_EDGE ( 'NONE', *, *, #90, .T. ) ;
#66 = EDGE_LOOP ( 'NONE', ( #91, #75, #10, #156 ) ) ;
#67 = LINE ( 'NONE', #162, #70 ) ;
#68 = DIRECTION ( 'NONE',  ( -1.000000000000000000, 0.000000000000000000, -0.000000000000000000 ) ) ;
#69 = SURFACE_SIDE_STYLE ('',( #123 ) ) ;
#70 = VECTOR ( 'NONE', #71, 1000.000000000000000 ) ;
#71 = DIRECTION ( 'NONE',  ( 1.000000000000000000, 9.912705577010326782E-17, -0.000000000000000000 ) ) ;
#72 = ORIENTED_EDGE ( 'NONE', *, *, #103, .F. ) ;
#73 = EDGE_CURVE ( 'NONE', #208, #150, #153, .T. ) ;
#74 = AXIS2_PLACEMENT_3D ( 'NONE', #224, #154, #59 ) ;
#75 = ORIENTED_EDGE ( 'NONE', *, *, #115, .F. ) ;
#76 = SHAPE_DEFINITION_REPRESENTATION ( #88, #135 ) ;
#77 = FACE_OUTER_BOUND ( 'NONE', #66, .T. ) ;
#78 = CARTESIAN_POINT ( 'NONE',  ( -34.99999999999999289, -35.00000000000001421, -6.000000000000000000 ) ) ;
#79 = EDGE_CURVE ( 'NONE', #219, #92, #227, .T. ) ;
#80 = ORIENTED_EDGE ( 'NONE', *, *, #90, .F. ) ;
#81 = CARTESIAN_POINT ( 'NONE',  ( -34.99999999999999289, -35.00000000000001421, -6.000000000000000000 ) ) ;
#82 = CARTESIAN_POINT ( 'NONE',  ( 0.000000000000000000, 0.000000000000000000, -6.000000000000000000 ) ) ;
#83 = CIRCLE ( 'NONE', #171, 8.500000000000000000 ) ;
#84 = PLANE ( 'NONE',  #2 ) ;
#85 = DIRECTION ( 'NONE',  ( 1.000000000000000000, 0.000000000000000000, -0.000000000000000000 ) ) ;
#86 = DIRECTION ( 'NONE',  ( -1.000000000000000000, -9.912705577010325549E-17, -0.000000000000000000 ) ) ;
#87 = MANIFOLD_SOLID_BREP ( 'Basis-Blech1', #5 ) ;
#88 = PRODUCT_DEFINITION_SHAPE ( 'NONE', 'NONE',  #122 ) ;
#89 = AXIS2_PLACEMENT_3D ( 'NONE', #29, #204, #155 ) ;
#90 = EDGE_CURVE ( 'NONE', #54, #54, #83, .T. ) ;
#91 = ORIENTED_EDGE ( 'NONE', *, *, #182, .F. ) ;
#92 = VERTEX_POINT ( 'NONE', #195 ) ;
#93 = CARTESIAN_POINT ( 'NONE',  ( -34.99999999999999289, -35.00000000000001421, 0.000000000000000000 ) ) ;
#94 = FILL_AREA_STYLE ('',( #203 ) ) ;
#95 = DIRECTION ( 'NONE',  ( 0.000000000000000000, 0.000000000000000000, 1.000000000000000000 ) ) ;
#96 = CARTESIAN_POINT ( 'NONE',  ( -34.99999999999999289, -35.00000000000001421, -6.000000000000000000 ) ) ;
#97 = ORIENTED_EDGE ( 'NONE', *, *, #142, .F. ) ;
#98 = DIRECTION ( 'NONE',  ( -1.000000000000000000, -9.912705577010325549E-17, -0.000000000000000000 ) ) ;
#99 = DIRECTION ( 'NONE',  ( 0.000000000000000000, 0.000000000000000000, 1.000000000000000000 ) ) ;
#100 = DIRECTION ( 'NONE',  ( 0.000000000000000000, 0.000000000000000000, 1.000000000000000000 ) ) ;
#101 = AXIS2_PLACEMENT_3D ( 'NONE', #81, #207, #41 ) ;
#102 = PLANE ( 'NONE',  #108 ) ;
#103 = EDGE_CURVE ( 'NONE', #46, #208, #67, .T. ) ;
#104 = CARTESIAN_POINT ( 'NONE',  ( 35.00000000000000000, -35.00000000000000711, 0.000000000000000000 ) ) ;
#105 = PLANE ( 'NONE',  #17 ) ;
#106 = VECTOR ( 'NONE', #120, 1000.000000000000000 ) ;
#107 = PRODUCT_CONTEXT ( 'NONE', #198, 'mechanical' ) ;
#108 = AXIS2_PLACEMENT_3D ( 'NONE', #15, #85, #159 ) ;
#109 = EDGE_LOOP ( 'NONE', ( #25, #209, #174, #1 ) ) ;
#110 = CARTESIAN_POINT ( 'NONE',  ( 8.500000000000000000, 0.000000000000000000, 0.000000000000000000 ) ) ;
#111 = LINE ( 'NONE', #96, #131 ) ;
#112 = CARTESIAN_POINT ( 'NONE',  ( 8.500000000000000000, 0.000000000000000000, -6.000000000000000000 ) ) ;
#113 = CARTESIAN_POINT ( 'NONE',  ( 0.000000000000000000, 0.000000000000000000, -6.000000000000000000 ) ) ;
#114 = DIRECTION ( 'NONE',  ( -0.000000000000000000, 1.000000000000000000, -0.000000000000000000 ) ) ;
#115 = EDGE_CURVE ( 'NONE', #220, #92, #138, .T. ) ;
#116 = ORIENTED_EDGE ( 'NONE', *, *, #228, .F. ) ;
#117 = ORIENTED_EDGE ( 'NONE', *, *, #79, .F. ) ;
#118 = CARTESIAN_POINT ( 'NONE',  ( 35.00000000000000000, 34.99999999999999289, -6.000000000000000000 ) ) ;
#119 = FILL_AREA_STYLE ('',( #211 ) ) ;
#120 = DIRECTION ( 'NONE',  ( 0.000000000000000000, 0.000000000000000000, 1.000000000000000000 ) ) ;
#121 = VECTOR ( 'NONE', #86, 1000.000000000000000 ) ;
#122 = PRODUCT_DEFINITION ( 'UNKNOWN', '', #42, #163 ) ;
#123 = SURFACE_STYLE_FILL_AREA ( #119 ) ;
#124 = LINE ( 'NONE', #118, #214 ) ;
#125 = DIRECTION ( 'NONE',  ( 1.000000000000000000, 0.000000000000000000, 0.000000000000000000 ) ) ;
#126 = EDGE_LOOP ( 'NONE', ( #146 ) ) ;
#127 = VERTEX_POINT ( 'NONE', #104 ) ;
#128 = CARTESIAN_POINT ( 'NONE',  ( 35.00000000000000000, -35.00000000000000711, 0.000000000000000000 ) ) ;
#129 = FACE_OUTER_BOUND ( 'NONE', #26, .T. ) ;
#130 = PRESENTATION_STYLE_ASSIGNMENT (( #167 ) ) ;
#131 = VECTOR ( 'NONE', #23, 1000.000000000000000 ) ;
#132 = EDGE_LOOP ( 'NONE', ( #38, #183, #133, #230 ) ) ;
#133 = ORIENTED_EDGE ( 'NONE', *, *, #228, .T. ) ;
#134 = EDGE_LOOP ( 'NONE', ( #117, #27, #44, #165 ) ) ;
#135 = ADVANCED_BREP_SHAPE_REPRESENTATION ( '6348440', ( #87, #19 ), #61 ) ;
#136 = AXIS2_PLACEMENT_3D ( 'NONE', #113, #95, #169 ) ;
#137 = DIRECTION ( 'NONE',  ( -1.000000000000000000, -9.912705577010325549E-17, 0.000000000000000000 ) ) ;
#138 = LINE ( 'NONE', #143, #210 ) ;
#139 = CARTESIAN_POINT ( 'NONE',  ( 0.000000000000000000, 0.000000000000000000, 0.000000000000000000 ) ) ;
#140 = ADVANCED_FACE ( 'NONE', ( #36 ), #105, .T. ) ;
#141 = COLOUR_RGB ( '',0.7529411764705882248, 0.7529411764705882248, 0.7529411764705882248 ) ;
#142 = EDGE_CURVE ( 'NONE', #208, #127, #47, .T. ) ;
#143 = CARTESIAN_POINT ( 'NONE',  ( -35.00000000000000000, 34.99999999999999289, -6.000000000000000000 ) ) ;
#144 = UNCERTAINTY_MEASURE_WITH_UNIT (LENGTH_MEASURE( 1.000000000000000082E-05 ), #24, 'distance_accuracy_value', 'NONE');
#145 = PRODUCT ( '6348440', '6348440', '', ( #107 ) ) ;
#146 = ORIENTED_EDGE ( 'NONE', *, *, #202, .T. ) ;
#147 = UNCERTAINTY_MEASURE_WITH_UNIT (LENGTH_MEASURE( 1.000000000000000082E-05 ), #18, 'distance_accuracy_value', 'NONE');
#148 = EDGE_CURVE ( 'NONE', #150, #219, #124, .T. ) ;
#149 = LINE ( 'NONE', #223, #164 ) ;
#150 = VERTEX_POINT ( 'NONE', #179 ) ;
#151 = DIRECTION ( 'NONE',  ( 0.000000000000000000, 0.000000000000000000, 1.000000000000000000 ) ) ;
#152 = PLANE ( 'NONE',  #74 ) ;
#153 = LINE ( 'NONE', #62, #32 ) ;
#154 = DIRECTION ( 'NONE',  ( 0.000000000000000000, 0.000000000000000000, -1.000000000000000000 ) ) ;
#155 = DIRECTION ( 'NONE',  ( 1.000000000000000000, 9.912705577010325549E-17, 0.000000000000000000 ) ) ;
#156 = ORIENTED_EDGE ( 'NONE', *, *, #160, .T. ) ;
#157 = DIRECTION ( 'NONE',  ( 1.982541115402065110E-16, -1.000000000000000000, -0.000000000000000000 ) ) ;
#158 = CARTESIAN_POINT ( 'NONE',  ( -35.00000000000000000, 34.99999999999999289, -6.000000000000000000 ) ) ;
#159 = DIRECTION ( 'NONE',  ( -0.000000000000000000, 0.000000000000000000, -1.000000000000000000 ) ) ;
#160 = EDGE_CURVE ( 'NONE', #46, #45, #194, .T. ) ;
#161 = COLOUR_RGB ( '',0.7529411764705882248, 0.7529411764705882248, 0.7529411764705882248 ) ;
#162 = CARTESIAN_POINT ( 'NONE',  ( 35.00000000000000000, -35.00000000000000711, -6.000000000000000000 ) ) ;
#163 = PRODUCT_DEFINITION_CONTEXT ( 'detailed design', #51, 'design' ) ;
#164 = VECTOR ( 'NONE', #22, 1000.000000000000000 ) ;
#165 = ORIENTED_EDGE ( 'NONE', *, *, #115, .T. ) ;
#166 = STYLED_ITEM ( 'NONE', ( #130 ), #135 ) ;
#167 = SURFACE_STYLE_USAGE ( .BOTH. , #3 ) ;
#168 = FACE_BOUND ( 'NONE', #185, .T. ) ;
#169 = DIRECTION ( 'NONE',  ( 1.000000000000000000, 0.000000000000000000, 0.000000000000000000 ) ) ;
#170 = CYLINDRICAL_SURFACE ( 'NONE', #136, 8.500000000000000000 ) ;
#171 = AXIS2_PLACEMENT_3D ( 'NONE', #82, #100, #52 ) ;
#172 = EDGE_LOOP ( 'NONE', ( #8, #187, #180, #72 ) ) ;
#173 = PRODUCT_RELATED_PRODUCT_CATEGORY ( 'part', '', ( #145 ) ) ;
#174 = ORIENTED_EDGE ( 'NONE', *, *, #103, .T. ) ;
#175 = CARTESIAN_POINT ( 'NONE',  ( -34.99999999999999289, -35.00000000000001421, 0.000000000000000000 ) ) ;
#176 = CIRCLE ( 'NONE', #13, 8.500000000000000000 ) ;
#177 = DIRECTION ( 'NONE',  ( 0.000000000000000000, 0.000000000000000000, 1.000000000000000000 ) ) ;
#178 = FACE_OUTER_BOUND ( 'NONE', #172, .T. ) ;
#179 = CARTESIAN_POINT ( 'NONE',  ( 35.00000000000000000, 34.99999999999999289, -6.000000000000000000 ) ) ;
#180 = ORIENTED_EDGE ( 'NONE', *, *, #73, .F. ) ;
#181 = VECTOR ( 'NONE', #177, 1000.000000000000000 ) ;
#182 = EDGE_CURVE ( 'NONE', #92, #45, #30, .T. ) ;
#183 = ORIENTED_EDGE ( 'NONE', *, *, #234, .T. ) ;
#184 = DIRECTION ( 'NONE',  ( 1.000000000000000000, 9.912705577010326782E-17, -0.000000000000000000 ) ) ;
#185 = EDGE_LOOP ( 'NONE', ( #225 ) ) ;
#186 = CARTESIAN_POINT ( 'NONE',  ( -35.00000000000000000, 34.99999999999999289, -6.000000000000000000 ) ) ;
#187 = ORIENTED_EDGE ( 'NONE', *, *, #20, .F. ) ;
#188 = LINE ( 'NONE', #128, #28 ) ;
#189 = PLANE ( 'NONE',  #89 ) ;
#190 = ADVANCED_FACE ( 'NONE', ( #231, #178 ), #84, .T. ) ;
#191 = EDGE_LOOP ( 'NONE', ( #65 ) ) ;
#192 = MECHANICAL_DESIGN_GEOMETRIC_PRESENTATION_REPRESENTATION (  '', ( #166 ), #222 ) ;
#193 = FACE_OUTER_BOUND ( 'NONE', #109, .T. ) ;
#194 = LINE ( 'NONE', #14, #106 ) ;
#195 = CARTESIAN_POINT ( 'NONE',  ( -35.00000000000000000, 34.99999999999999289, 0.000000000000000000 ) ) ;
#196 = CARTESIAN_POINT ( 'NONE',  ( 35.00000000000000000, -35.00000000000000711, -6.000000000000000000 ) ) ;
#197 = UNCERTAINTY_MEASURE_WITH_UNIT (LENGTH_MEASURE( 1.000000000000000082E-05 ), #21, 'distance_accuracy_value', 'NONE');
#198 = APPLICATION_CONTEXT ( 'automotive_design' ) ;
#199 = SURFACE_STYLE_USAGE ( .BOTH. , #69 ) ;
#200 = CARTESIAN_POINT ( 'NONE',  ( 0.000000000000000000, 0.000000000000000000, 0.000000000000000000 ) ) ;
#201 = MECHANICAL_DESIGN_GEOMETRIC_PRESENTATION_REPRESENTATION (  '', ( #49 ), #39 ) ;
#202 = EDGE_CURVE ( 'NONE', #221, #221, #176, .T. ) ;
#203 = FILL_AREA_STYLE_COLOUR ( '', #161 ) ;
#204 = DIRECTION ( 'NONE',  ( 9.912705577010325549E-17, -1.000000000000000000, 0.000000000000000000 ) ) ;
#205 = EDGE_LOOP ( 'NONE', ( #116, #97, #57, #55 ) ) ;
#206 = PRESENTATION_LAYER_ASSIGNMENT (  '', '', ( #49 ) ) ;
#207 = DIRECTION ( 'NONE',  ( -1.000000000000000000, -1.982541115402065110E-16, 0.000000000000000000 ) ) ;
#208 = VERTEX_POINT ( 'NONE', #196 ) ;
#209 = ORIENTED_EDGE ( 'NONE', *, *, #160, .F. ) ;
#210 = VECTOR ( 'NONE', #31, 1000.000000000000000 ) ;
#211 = FILL_AREA_STYLE_COLOUR ( '', #141 ) ;
#212 = CARTESIAN_POINT ( 'NONE',  ( -35.00000000000000000, 34.99999999999999289, -6.000000000000000000 ) ) ;
#213 = DIRECTION ( 'NONE',  ( 0.000000000000000000, 0.000000000000000000, 1.000000000000000000 ) ) ;
#214 = VECTOR ( 'NONE', #99, 1000.000000000000000 ) ;
#215 = ADVANCED_FACE ( 'NONE', ( #33 ), #102, .T. ) ;
#216 = DIRECTION ( 'NONE',  ( -9.912705577010325549E-17, 1.000000000000000000, 0.000000000000000000 ) ) ;
#217 =( NAMED_UNIT ( * ) SI_UNIT ( $, .STERADIAN. ) SOLID_ANGLE_UNIT ( ) );
#218 = PRESENTATION_LAYER_ASSIGNMENT (  '', '', ( #166 ) ) ;
#219 = VERTEX_POINT ( 'NONE', #233 ) ;
#220 = VERTEX_POINT ( 'NONE', #186 ) ;
#221 = VERTEX_POINT ( 'NONE', #110 ) ;
#222 =( GEOMETRIC_REPRESENTATION_CONTEXT ( 3 ) GLOBAL_UNCERTAINTY_ASSIGNED_CONTEXT ( ( #197 ) ) GLOBAL_UNIT_ASSIGNED_CONTEXT ( ( #21, #6, #4 ) ) REPRESENTATION_CONTEXT ( 'NONE', 'WORKASPACE' ) );
#223 = CARTESIAN_POINT ( 'NONE',  ( 35.00000000000000000, 34.99999999999999289, 0.000000000000000000 ) ) ;
#224 = CARTESIAN_POINT ( 'NONE',  ( -35.00000000000000000, 34.99999999999999289, 0.000000000000000000 ) ) ;
#225 = ORIENTED_EDGE ( 'NONE', *, *, #202, .F. ) ;
#226 = VECTOR ( 'NONE', #98, 1000.000000000000000 ) ;
#227 = LINE ( 'NONE', #63, #121 ) ;
#228 = EDGE_CURVE ( 'NONE', #127, #219, #149, .T. ) ;
#229 = CARTESIAN_POINT ( 'NONE',  ( -35.00000000000000000, 34.99999999999999289, -6.000000000000000000 ) ) ;
#230 = ORIENTED_EDGE ( 'NONE', *, *, #79, .T. ) ;
#231 = FACE_BOUND ( 'NONE', #191, .T. ) ;
#232 = DIRECTION ( 'NONE',  ( 0.000000000000000000, 0.000000000000000000, -1.000000000000000000 ) ) ;
#233 = CARTESIAN_POINT ( 'NONE',  ( 35.00000000000000000, 34.99999999999999289, 0.000000000000000000 ) ) ;
#234 = EDGE_CURVE ( 'NONE', #45, #127, #188, .T. ) ;
#235 = VECTOR ( 'NONE', #157, 1000.000000000000000 ) ;
#236 =( NAMED_UNIT ( * ) PLANE_ANGLE_UNIT ( ) SI_UNIT ( $, .RADIAN. ) );
ENDSEC;
END-ISO-10303-21;
